ISO-10303-21;
HEADER;
/* Generated by software containing ST-Developer
 * from STEP Tools, Inc. (www.steptools.com) 
 */
/* OPTION: strings as raw bytes, not using required /X/ escapes */

FILE_DESCRIPTION(
/* description */ ('Unknown'),
/* implementation_level */ '2;1');

FILE_NAME(
/* name */ 'IBDH-4-Mat_1cast',
/* time_stamp */ '2018-03-04T16:52:34+00:00',
/* author */ ('Unknown'),
/* organization */ ('Unknown'),
/* preprocessor_version */ 'ST-DEVELOPER v16.7',
/* originating_system */ 'DEX',
/* authorisation */ $);

FILE_SCHEMA (('AUTOMOTIVE_DESIGN {1 0 10303 214 3 1 1}'));
ENDSEC;

DATA;
#10=PROPERTY_DEFINITION_REPRESENTATION(#14,#12);
#11=PROPERTY_DEFINITION_REPRESENTATION(#15,#13);
#12=REPRESENTATION('',(#16),#519);
#13=REPRESENTATION('',(#17),#519);
#14=PROPERTY_DEFINITION('pmi validation property','',#524);
#15=PROPERTY_DEFINITION('pmi validation property','',#524);
#16=VALUE_REPRESENTATION_ITEM('number of annotations',COUNT_MEASURE(0.));
#17=VALUE_REPRESENTATION_ITEM('number of views',COUNT_MEASURE(0.));
#18=SHAPE_REPRESENTATION_RELATIONSHIP('','',#308,#19);
#19=ADVANCED_BREP_SHAPE_REPRESENTATION('',(#306),#519);
#20=B_SPLINE_CURVE_WITH_KNOTS('',3,(#453,#454,#455,#456),.UNSPECIFIED.,
 .F.,.F.,(4,4),(5.82565059501176E-5,0.0280108769359061),.UNSPECIFIED.);
#21=B_SPLINE_CURVE_WITH_KNOTS('',3,(#485,#486,#487,#488),.UNSPECIFIED.,
 .F.,.F.,(4,4),(5.7748776981561E-5,0.0295068946235599),.UNSPECIFIED.);
#22=ELLIPSE('',#312,2.5008582830241,2.50000008);
#23=ELLIPSE('',#313,3.49014839754232,2.50000008);
#24=ELLIPSE('',#314,3.58273754640786,2.50000008);
#25=ELLIPSE('',#315,3.49014839754232,2.50000008);
#26=ELLIPSE('',#317,3.49014839754232,2.50000008);
#27=ELLIPSE('',#319,3.58273754640786,2.50000008);
#28=ELLIPSE('',#320,2.50085584035614,2.50000008);
#29=ELLIPSE('',#322,3.58273754640786,2.50000008);
#30=ELLIPSE('',#323,2.50085822039877,2.50000008);
#31=ELLIPSE('',#324,3.49014839754232,2.50000008);
#32=ELLIPSE('',#326,2.50087384763018,2.50000008);
#33=ELLIPSE('',#328,3.49014839754232,2.50000008);
#34=ELLIPSE('',#329,2.50087384763018,2.50000008);
#35=ELLIPSE('',#331,2.50085590289449,2.50000008);
#36=CYLINDRICAL_SURFACE('',#311,2.50000008);
#37=CYLINDRICAL_SURFACE('',#316,2.50000008);
#38=CYLINDRICAL_SURFACE('',#318,2.50000008);
#39=CYLINDRICAL_SURFACE('',#321,2.50000008);
#40=CYLINDRICAL_SURFACE('',#325,2.50000008);
#41=CYLINDRICAL_SURFACE('',#327,2.50000008);
#42=CYLINDRICAL_SURFACE('',#330,2.50000008);
#43=ORIENTED_EDGE('',*,*,#123,.F.);
#44=ORIENTED_EDGE('',*,*,#124,.T.);
#45=ORIENTED_EDGE('',*,*,#125,.F.);
#46=ORIENTED_EDGE('',*,*,#126,.T.);
#47=ORIENTED_EDGE('',*,*,#127,.F.);
#48=ORIENTED_EDGE('',*,*,#128,.T.);
#49=ORIENTED_EDGE('',*,*,#129,.T.);
#50=ORIENTED_EDGE('',*,*,#130,.T.);
#51=ORIENTED_EDGE('',*,*,#131,.F.);
#52=ORIENTED_EDGE('',*,*,#132,.T.);
#53=ORIENTED_EDGE('',*,*,#133,.F.);
#54=ORIENTED_EDGE('',*,*,#132,.F.);
#55=ORIENTED_EDGE('',*,*,#134,.F.);
#56=ORIENTED_EDGE('',*,*,#135,.F.);
#57=ORIENTED_EDGE('',*,*,#136,.T.);
#58=ORIENTED_EDGE('',*,*,#137,.T.);
#59=ORIENTED_EDGE('',*,*,#138,.F.);
#60=ORIENTED_EDGE('',*,*,#135,.T.);
#61=ORIENTED_EDGE('',*,*,#139,.T.);
#62=ORIENTED_EDGE('',*,*,#140,.T.);
#63=ORIENTED_EDGE('',*,*,#141,.T.);
#64=ORIENTED_EDGE('',*,*,#142,.F.);
#65=ORIENTED_EDGE('',*,*,#143,.T.);
#66=ORIENTED_EDGE('',*,*,#129,.F.);
#67=ORIENTED_EDGE('',*,*,#144,.T.);
#68=ORIENTED_EDGE('',*,*,#140,.F.);
#69=ORIENTED_EDGE('',*,*,#145,.F.);
#70=ORIENTED_EDGE('',*,*,#146,.T.);
#71=ORIENTED_EDGE('',*,*,#136,.F.);
#72=ORIENTED_EDGE('',*,*,#147,.T.);
#73=ORIENTED_EDGE('',*,*,#130,.F.);
#74=ORIENTED_EDGE('',*,*,#143,.F.);
#75=ORIENTED_EDGE('',*,*,#148,.F.);
#76=ORIENTED_EDGE('',*,*,#149,.F.);
#77=ORIENTED_EDGE('',*,*,#150,.T.);
#78=ORIENTED_EDGE('',*,*,#145,.T.);
#79=ORIENTED_EDGE('',*,*,#151,.T.);
#80=ORIENTED_EDGE('',*,*,#131,.T.);
#81=ORIENTED_EDGE('',*,*,#152,.F.);
#82=ORIENTED_EDGE('',*,*,#153,.T.);
#83=ORIENTED_EDGE('',*,*,#154,.F.);
#84=ORIENTED_EDGE('',*,*,#134,.T.);
#85=ORIENTED_EDGE('',*,*,#151,.F.);
#86=ORIENTED_EDGE('',*,*,#155,.T.);
#87=ORIENTED_EDGE('',*,*,#156,.F.);
#88=ORIENTED_EDGE('',*,*,#152,.T.);
#89=ORIENTED_EDGE('',*,*,#147,.F.);
#90=ORIENTED_EDGE('',*,*,#157,.T.);
#91=ORIENTED_EDGE('',*,*,#157,.F.);
#92=ORIENTED_EDGE('',*,*,#139,.F.);
#93=ORIENTED_EDGE('',*,*,#154,.T.);
#94=ORIENTED_EDGE('',*,*,#158,.F.);
#95=ORIENTED_EDGE('',*,*,#155,.F.);
#96=ORIENTED_EDGE('',*,*,#153,.F.);
#97=ORIENTED_EDGE('',*,*,#156,.T.);
#98=ORIENTED_EDGE('',*,*,#158,.T.);
#99=ORIENTED_EDGE('',*,*,#159,.F.);
#100=ORIENTED_EDGE('',*,*,#126,.F.);
#101=ORIENTED_EDGE('',*,*,#160,.T.);
#102=ORIENTED_EDGE('',*,*,#149,.T.);
#103=ORIENTED_EDGE('',*,*,#148,.T.);
#104=ORIENTED_EDGE('',*,*,#142,.T.);
#105=ORIENTED_EDGE('',*,*,#161,.F.);
#106=ORIENTED_EDGE('',*,*,#127,.T.);
#107=ORIENTED_EDGE('',*,*,#133,.T.);
#108=ORIENTED_EDGE('',*,*,#138,.T.);
#109=ORIENTED_EDGE('',*,*,#162,.F.);
#110=ORIENTED_EDGE('',*,*,#124,.F.);
#111=ORIENTED_EDGE('',*,*,#125,.T.);
#112=ORIENTED_EDGE('',*,*,#162,.T.);
#113=ORIENTED_EDGE('',*,*,#137,.F.);
#114=ORIENTED_EDGE('',*,*,#146,.F.);
#115=ORIENTED_EDGE('',*,*,#150,.F.);
#116=ORIENTED_EDGE('',*,*,#160,.F.);
#117=ORIENTED_EDGE('',*,*,#123,.T.);
#118=ORIENTED_EDGE('',*,*,#159,.T.);
#119=ORIENTED_EDGE('',*,*,#141,.F.);
#120=ORIENTED_EDGE('',*,*,#144,.F.);
#121=ORIENTED_EDGE('',*,*,#128,.F.);
#122=ORIENTED_EDGE('',*,*,#161,.T.);
#123=EDGE_CURVE('',#163,#164,#188,.T.);
#124=EDGE_CURVE('',#163,#165,#189,.T.);
#125=EDGE_CURVE('',#166,#165,#190,.T.);
#126=EDGE_CURVE('',#166,#164,#191,.T.);
#127=EDGE_CURVE('',#167,#168,#22,.F.);
#128=EDGE_CURVE('',#167,#169,#192,.F.);
#129=EDGE_CURVE('',#169,#170,#23,.F.);
#130=EDGE_CURVE('',#170,#171,#24,.F.);
#131=EDGE_CURVE('',#172,#171,#193,.T.);
#132=EDGE_CURVE('',#172,#168,#25,.T.);
#133=EDGE_CURVE('',#168,#173,#20,.T.);
#134=EDGE_CURVE('',#174,#172,#194,.T.);
#135=EDGE_CURVE('',#173,#174,#26,.T.);
#136=EDGE_CURVE('',#175,#176,#27,.F.);
#137=EDGE_CURVE('',#176,#177,#195,.T.);
#138=EDGE_CURVE('',#173,#177,#28,.F.);
#139=EDGE_CURVE('',#174,#175,#196,.T.);
#140=EDGE_CURVE('',#170,#178,#29,.T.);
#141=EDGE_CURVE('',#178,#179,#197,.F.);
#142=EDGE_CURVE('',#180,#179,#30,.F.);
#143=EDGE_CURVE('',#180,#170,#31,.T.);
#144=EDGE_CURVE('',#169,#178,#32,.F.);
#145=EDGE_CURVE('',#181,#182,#33,.T.);
#146=EDGE_CURVE('',#181,#176,#34,.F.);
#147=EDGE_CURVE('',#175,#171,#198,.T.);
#148=EDGE_CURVE('',#182,#180,#21,.T.);
#149=EDGE_CURVE('',#183,#182,#35,.F.);
#150=EDGE_CURVE('',#183,#181,#199,.T.);
#151=EDGE_CURVE('',#184,#172,#200,.T.);
#152=EDGE_CURVE('',#185,#171,#201,.T.);
#153=EDGE_CURVE('',#185,#184,#202,.T.);
#154=EDGE_CURVE('',#174,#186,#203,.T.);
#155=EDGE_CURVE('',#184,#186,#204,.T.);
#156=EDGE_CURVE('',#185,#187,#205,.T.);
#157=EDGE_CURVE('',#175,#187,#206,.T.);
#158=EDGE_CURVE('',#187,#186,#207,.T.);
#159=EDGE_CURVE('',#164,#179,#208,.T.);
#160=EDGE_CURVE('',#166,#183,#209,.T.);
#161=EDGE_CURVE('',#167,#163,#210,.T.);
#162=EDGE_CURVE('',#165,#177,#211,.T.);
#163=VERTEX_POINT('',#432);
#164=VERTEX_POINT('',#433);
#165=VERTEX_POINT('',#435);
#166=VERTEX_POINT('',#437);
#167=VERTEX_POINT('',#441);
#168=VERTEX_POINT('',#442);
#169=VERTEX_POINT('',#444);
#170=VERTEX_POINT('',#446);
#171=VERTEX_POINT('',#448);
#172=VERTEX_POINT('',#450);
#173=VERTEX_POINT('',#457);
#174=VERTEX_POINT('',#459);
#175=VERTEX_POINT('',#463);
#176=VERTEX_POINT('',#464);
#177=VERTEX_POINT('',#466);
#178=VERTEX_POINT('',#471);
#179=VERTEX_POINT('',#473);
#180=VERTEX_POINT('',#475);
#181=VERTEX_POINT('',#481);
#182=VERTEX_POINT('',#482);
#183=VERTEX_POINT('',#491);
#184=VERTEX_POINT('',#495);
#185=VERTEX_POINT('',#497);
#186=VERTEX_POINT('',#501);
#187=VERTEX_POINT('',#505);
#188=LINE('',#431,#212);
#189=LINE('',#434,#213);
#190=LINE('',#436,#214);
#191=LINE('',#438,#215);
#192=LINE('',#443,#216);
#193=LINE('',#449,#217);
#194=LINE('',#458,#218);
#195=LINE('',#465,#219);
#196=LINE('',#468,#220);
#197=LINE('',#472,#221);
#198=LINE('',#484,#222);
#199=LINE('',#492,#223);
#200=LINE('',#494,#224);
#201=LINE('',#496,#225);
#202=LINE('',#498,#226);
#203=LINE('',#500,#227);
#204=LINE('',#502,#228);
#205=LINE('',#504,#229);
#206=LINE('',#506,#230);
#207=LINE('',#508,#231);
#208=LINE('',#511,#232);
#209=LINE('',#512,#233);
#210=LINE('',#514,#234);
#211=LINE('',#515,#235);
#212=VECTOR('',#345,1000.);
#213=VECTOR('',#346,1000.);
#214=VECTOR('',#347,1000.);
#215=VECTOR('',#348,1000.);
#216=VECTOR('',#353,1000.);
#217=VECTOR('',#358,1000.);
#218=VECTOR('',#363,1000.);
#219=VECTOR('',#370,1000.);
#220=VECTOR('',#373,1000.);
#221=VECTOR('',#378,1000.);
#222=VECTOR('',#393,1000.);
#223=VECTOR('',#398,1000.);
#224=VECTOR('',#401,1000.);
#225=VECTOR('',#402,1000.);
#226=VECTOR('',#403,1000.);
#227=VECTOR('',#406,1000.);
#228=VECTOR('',#407,1000.);
#229=VECTOR('',#410,1000.);
#230=VECTOR('',#411,1000.);
#231=VECTOR('',#414,1000.);
#232=VECTOR('',#419,1000.);
#233=VECTOR('',#420,1000.);
#234=VECTOR('',#423,1000.);
#235=VECTOR('',#424,1000.);
#236=EDGE_LOOP('',(#43,#44,#45,#46));
#237=EDGE_LOOP('',(#47,#48,#49,#50,#51,#52));
#238=EDGE_LOOP('',(#53,#54,#55,#56));
#239=EDGE_LOOP('',(#57,#58,#59,#60,#61));
#240=EDGE_LOOP('',(#62,#63,#64,#65));
#241=EDGE_LOOP('',(#66,#67,#68));
#242=EDGE_LOOP('',(#69,#70,#71,#72,#73,#74,#75));
#243=EDGE_LOOP('',(#76,#77,#78));
#244=EDGE_LOOP('',(#79,#80,#81,#82));
#245=EDGE_LOOP('',(#83,#84,#85,#86));
#246=EDGE_LOOP('',(#87,#88,#89,#90));
#247=EDGE_LOOP('',(#91,#92,#93,#94));
#248=EDGE_LOOP('',(#95,#96,#97,#98));
#249=EDGE_LOOP('',(#99,#100,#101,#102,#103,#104));
#250=EDGE_LOOP('',(#105,#106,#107,#108,#109,#110));
#251=EDGE_LOOP('',(#111,#112,#113,#114,#115,#116));
#252=EDGE_LOOP('',(#117,#118,#119,#120,#121,#122));
#253=FACE_BOUND('',#236,.T.);
#254=FACE_BOUND('',#237,.T.);
#255=FACE_BOUND('',#238,.T.);
#256=FACE_BOUND('',#239,.T.);
#257=FACE_BOUND('',#240,.T.);
#258=FACE_BOUND('',#241,.T.);
#259=FACE_BOUND('',#242,.T.);
#260=FACE_BOUND('',#243,.T.);
#261=FACE_BOUND('',#244,.T.);
#262=FACE_BOUND('',#245,.T.);
#263=FACE_BOUND('',#246,.T.);
#264=FACE_BOUND('',#247,.T.);
#265=FACE_BOUND('',#248,.T.);
#266=FACE_BOUND('',#249,.T.);
#267=FACE_BOUND('',#250,.T.);
#268=FACE_BOUND('',#251,.T.);
#269=FACE_BOUND('',#252,.T.);
#270=PLANE('',#310);
#271=PLANE('',#332);
#272=PLANE('',#333);
#273=PLANE('',#334);
#274=PLANE('',#335);
#275=PLANE('',#336);
#276=PLANE('',#337);
#277=PLANE('',#338);
#278=PLANE('',#339);
#279=PLANE('',#340);
#280=ADVANCED_FACE('',(#253),#270,.T.);
#281=ADVANCED_FACE('',(#254),#36,.F.);
#282=ADVANCED_FACE('',(#255),#37,.F.);
#283=ADVANCED_FACE('',(#256),#38,.F.);
#284=ADVANCED_FACE('',(#257),#39,.F.);
#285=ADVANCED_FACE('',(#258),#40,.F.);
#286=ADVANCED_FACE('',(#259),#41,.F.);
#287=ADVANCED_FACE('',(#260),#42,.F.);
#288=ADVANCED_FACE('',(#261),#271,.F.);
#289=ADVANCED_FACE('',(#262),#272,.F.);
#290=ADVANCED_FACE('',(#263),#273,.F.);
#291=ADVANCED_FACE('',(#264),#274,.F.);
#292=ADVANCED_FACE('',(#265),#275,.T.);
#293=ADVANCED_FACE('',(#266),#276,.T.);
#294=ADVANCED_FACE('',(#267),#277,.T.);
#295=ADVANCED_FACE('',(#268),#278,.F.);
#296=ADVANCED_FACE('',(#269),#279,.F.);
#297=CLOSED_SHELL('',(#280,#281,#282,#283,#284,#285,#286,#287,#288,#289,
#290,#291,#292,#293,#294,#295,#296));
#298=STYLED_ITEM('',(#299),#306);
#299=PRESENTATION_STYLE_ASSIGNMENT((#300));
#300=SURFACE_STYLE_USAGE(.BOTH.,#301);
#301=SURFACE_SIDE_STYLE('',(#302));
#302=SURFACE_STYLE_FILL_AREA(#303);
#303=FILL_AREA_STYLE('',(#304));
#304=FILL_AREA_STYLE_COLOUR('',#305);
#305=COLOUR_RGB('',0.506983280181885,0.531564235687256,0.550000011920929);
#306=MANIFOLD_SOLID_BREP('',#297);
#307=SHAPE_DEFINITION_REPRESENTATION(#524,#308);
#308=SHAPE_REPRESENTATION('IBDH-4-Mat_1cast',(#309),#519);
#309=AXIS2_PLACEMENT_3D('',#429,#341,#342);
#310=AXIS2_PLACEMENT_3D('',#430,#343,#344);
#311=AXIS2_PLACEMENT_3D('',#439,#349,#350);
#312=AXIS2_PLACEMENT_3D('',#440,#351,#352);
#313=AXIS2_PLACEMENT_3D('',#445,#354,#355);
#314=AXIS2_PLACEMENT_3D('',#447,#356,#357);
#315=AXIS2_PLACEMENT_3D('',#451,#359,#360);
#316=AXIS2_PLACEMENT_3D('',#452,#361,#362);
#317=AXIS2_PLACEMENT_3D('',#460,#364,#365);
#318=AXIS2_PLACEMENT_3D('',#461,#366,#367);
#319=AXIS2_PLACEMENT_3D('',#462,#368,#369);
#320=AXIS2_PLACEMENT_3D('',#467,#371,#372);
#321=AXIS2_PLACEMENT_3D('',#469,#374,#375);
#322=AXIS2_PLACEMENT_3D('',#470,#376,#377);
#323=AXIS2_PLACEMENT_3D('',#474,#379,#380);
#324=AXIS2_PLACEMENT_3D('',#476,#381,#382);
#325=AXIS2_PLACEMENT_3D('',#477,#383,#384);
#326=AXIS2_PLACEMENT_3D('',#478,#385,#386);
#327=AXIS2_PLACEMENT_3D('',#479,#387,#388);
#328=AXIS2_PLACEMENT_3D('',#480,#389,#390);
#329=AXIS2_PLACEMENT_3D('',#483,#391,#392);
#330=AXIS2_PLACEMENT_3D('',#489,#394,#395);
#331=AXIS2_PLACEMENT_3D('',#490,#396,#397);
#332=AXIS2_PLACEMENT_3D('',#493,#399,#400);
#333=AXIS2_PLACEMENT_3D('',#499,#404,#405);
#334=AXIS2_PLACEMENT_3D('',#503,#408,#409);
#335=AXIS2_PLACEMENT_3D('',#507,#412,#413);
#336=AXIS2_PLACEMENT_3D('',#509,#415,#416);
#337=AXIS2_PLACEMENT_3D('',#510,#417,#418);
#338=AXIS2_PLACEMENT_3D('',#513,#421,#422);
#339=AXIS2_PLACEMENT_3D('',#516,#425,#426);
#340=AXIS2_PLACEMENT_3D('',#517,#427,#428);
#341=DIRECTION('',(0.,0.,1.));
#342=DIRECTION('',(1.,0.,0.));
#343=DIRECTION('',(0.,-1.,0.));
#344=DIRECTION('',(-0.130526192220101,0.,0.991444861373804));
#345=DIRECTION('',(-0.0261769483078768,0.,0.999657324975557));
#346=DIRECTION('',(0.99999999982609,0.,-1.86499515478118E-5));
#347=DIRECTION('',(-0.0261769483078965,0.,-0.999657324975557));
#348=DIRECTION('',(-0.999999999843456,0.,1.76943174601514E-5));
#349=DIRECTION('',(0.0261769483078689,0.,-0.999657324975557));
#350=DIRECTION('',(-0.999657324975557,0.,-0.0261769483078689));
#351=DIRECTION('',(-1.86499515478117E-5,6.83559485700839E-8,-0.999999999826087));
#352=DIRECTION('',(0.999999999822687,-2.60854924237298E-6,-1.86499517260582E-5));
#353=DIRECTION('',(0.0261769483078689,0.,-0.999657324975557));
#354=DIRECTION('',(0.716301943424653,0.,-0.697790459841682));
#355=DIRECTION('',(-0.697790459841682,0.,-0.716301943424653));
#356=DIRECTION('',(-0.697790459841682,0.,-0.716301943424653));
#357=DIRECTION('',(0.716301943424653,0.,-0.697790459841682));
#358=DIRECTION('',(-0.0261769483078689,0.,0.999657324975557));
#359=DIRECTION('',(0.716301943424653,0.,-0.697790459841682));
#360=DIRECTION('',(-0.697790459841682,0.,-0.716301943424653));
#361=DIRECTION('',(1.,0.,0.));
#362=DIRECTION('',(0.,0.,-1.));
#363=DIRECTION('',(-1.,0.,0.));
#364=DIRECTION('',(-0.716301943424653,0.,-0.697790459841682));
#365=DIRECTION('',(0.697790459841682,0.,-0.716301943424653));
#366=DIRECTION('',(-0.0261769483078689,0.,-0.999657324975557));
#367=DIRECTION('',(-0.999657324975557,0.,0.0261769483078689));
#368=DIRECTION('',(0.697790459841682,0.,-0.716301943424653));
#369=DIRECTION('',(-0.716301943424653,0.,-0.697790459841682));
#370=DIRECTION('',(-0.0261769483078689,0.,-0.999657324975557));
#371=DIRECTION('',(-1.86499515478117E-5,6.83559485700839E-8,-0.999999999826087));
#372=DIRECTION('',(-0.999999999822678,-2.61227012702863E-6,1.86499513691839E-5));
#373=DIRECTION('',(0.0261769483078689,0.,0.999657324975557));
#374=DIRECTION('',(0.0261769483078689,0.,-0.999657324975557));
#375=DIRECTION('',(-0.999657324975557,0.,-0.0261769483078689));
#376=DIRECTION('',(-0.697790459841682,0.,-0.716301943424653));
#377=DIRECTION('',(0.716301943424653,0.,-0.697790459841682));
#378=DIRECTION('',(0.0261769483078689,0.,-0.999657324975557));
#379=DIRECTION('',(1.76943174601514E-5,-6.48533510183394E-8,0.999999999843454));
#380=DIRECTION('',(0.999999999840393,-2.47497602046253E-6,-1.76943176206077E-5));
#381=DIRECTION('',(0.716301943424653,0.,-0.697790459841682));
#382=DIRECTION('',(-0.697790459841682,0.,-0.716301943424653));
#383=DIRECTION('',(1.,0.,0.));
#384=DIRECTION('',(0.,0.,-1.));
#385=DIRECTION('',(0.999650615071604,-0.00366392727316994,0.0261767726028581));
#386=DIRECTION('',(0.0264319463332692,0.138568953872,-0.989999998603967));
#387=DIRECTION('',(1.,0.,0.));
#388=DIRECTION('',(0.,0.,-1.));
#389=DIRECTION('',(-0.716301943424653,0.,-0.697790459841682));
#390=DIRECTION('',(0.697790459841682,0.,-0.716301943424653));
#391=DIRECTION('',(-0.999650615071603,0.00366392727316994,0.0261767726028778));
#392=DIRECTION('',(0.0264319463332887,0.138568953871897,0.989999998603981));
#393=DIRECTION('',(-1.,0.,0.));
#394=DIRECTION('',(-0.0261769483078689,0.,-0.999657324975557));
#395=DIRECTION('',(-0.999657324975557,0.,0.0261769483078689));
#396=DIRECTION('',(1.76943174601514E-5,-6.48533510183394E-8,0.999999999843454));
#397=DIRECTION('',(-0.999999999840385,-2.4783253540096E-6,1.76943172993694E-5));
#398=DIRECTION('',(-0.0261769483078689,0.,-0.999657324975557));
#399=DIRECTION('',(0.999657324975557,0.,0.0261769483078689));
#400=DIRECTION('',(0.,-1.,0.));
#401=DIRECTION('',(0.,-1.,0.));
#402=DIRECTION('',(0.,-1.,0.));
#403=DIRECTION('',(0.0261769481873903,-9.59439557636413E-5,-0.999657320374513));
#404=DIRECTION('',(0.,0.,1.));
#405=DIRECTION('',(0.,-1.,0.));
#406=DIRECTION('',(0.,1.,0.));
#407=DIRECTION('',(0.999993283193413,-0.00366518322305705,0.));
#408=DIRECTION('',(0.,0.,-1.));
#409=DIRECTION('',(0.,1.,0.));
#410=DIRECTION('',(0.999993283193413,-0.00366518322305705,0.));
#411=DIRECTION('',(0.,1.,0.));
#412=DIRECTION('',(-0.999657324975557,0.,0.0261769483078689));
#413=DIRECTION('',(0.,1.,0.));
#414=DIRECTION('',(-0.0261769481873863,9.59439557642359E-5,-0.999657320374513));
#415=DIRECTION('',(0.00366518322305705,0.999993283193413,0.));
#416=DIRECTION('',(-0.999993283193413,0.00366518322305705,0.));
#417=DIRECTION('',(1.76943174601514E-5,-6.48533510183394E-8,0.999999999843454));
#418=DIRECTION('',(0.999999999843456,0.,-1.76943174601514E-5));
#419=DIRECTION('',(0.00366518322305705,0.999993283193413,-8.70207768691178E-17));
#420=DIRECTION('',(0.00366518322305704,0.999993283193413,-8.70207768691178E-17));
#421=DIRECTION('',(-1.86499515478117E-5,6.83559485700839E-8,-0.999999999826087));
#422=DIRECTION('',(-0.99999999982609,0.,1.86499515478118E-5));
#423=DIRECTION('',(-0.00366518322305704,-0.999993283193413,8.74762114134248E-17));
#424=DIRECTION('',(0.00366518322305704,0.999993283193413,-8.74762053547109E-17));
#425=DIRECTION('',(-0.999650615071603,0.00366392727316994,0.0261767726028778));
#426=DIRECTION('',(0.0261769483078965,0.,0.999657324975557));
#427=DIRECTION('',(0.999650615071604,-0.00366392727316994,0.0261767726028581));
#428=DIRECTION('',(0.0261769483078768,0.,-0.999657324975557));
#429=CARTESIAN_POINT('',(0.,0.,0.));
#430=CARTESIAN_POINT('',(0.,0.,0.));
#431=CARTESIAN_POINT('',(-0.0905127837448505,0.,-0.00237016065615176));
#432=CARTESIAN_POINT('',(-14.1262482775484,0.,536.000743448203));
#433=CARTESIAN_POINT('',(-14.8745109814057,2.77555756156289E-14,564.575743257937));
#434=CARTESIAN_POINT('',(0.00999638297976015,0.,536.000479807925));
#435=CARTESIAN_POINT('',(13.9450848712859,-2.77555756156289E-14,536.0002199192));
#436=CARTESIAN_POINT('',(-0.0905127837567207,0.,0.00237016065646438));
#437=CARTESIAN_POINT('',(14.693347584202,0.,564.575220074861));
#438=CARTESIAN_POINT('',(0.00998977777289918,0.,564.575479886855));
#439=CARTESIAN_POINT('',(0.,22.225,0.));
#440=CARTESIAN_POINT('',(-14.0356734245065,22.225,536.000743278198));
#441=CARTESIAN_POINT('',(-14.053951808423,19.7250666949337,536.000743448203));
#442=CARTESIAN_POINT('',(-13.9760562912429,19.7257103735503,536.0007419955));
#443=CARTESIAN_POINT('',(-0.0182658545186498,19.7250666949337,-0.000478308233819537));
#444=CARTESIAN_POINT('',(-14.8001754132914,19.7250666949337,564.497873209195));
#445=CARTESIAN_POINT('',(-14.7823755060208,22.225,564.516145325116));
#446=CARTESIAN_POINT('',(-14.7823755060219,19.72499992,564.516145325116));
#447=CARTESIAN_POINT('',(-14.7823755060208,22.225,564.516145325116));
#448=CARTESIAN_POINT('',(-14.5216372126513,24.7120634089214,564.262145325118));
#449=CARTESIAN_POINT('',(-13.7866769519707,24.7120634089214,536.195145325116));
#450=CARTESIAN_POINT('',(-13.7866769519689,24.7120634089214,536.195145325114));
#451=CARTESIAN_POINT('',(-14.0341127971814,22.225,535.941145325116));
#452=CARTESIAN_POINT('',(70.5579903419032,22.225,535.941145325116));
#453=CARTESIAN_POINT('',(-13.9760562912429,19.7257103735503,536.0007419955));
#454=CARTESIAN_POINT('',(-4.65851614954557,19.7257062298876,536.000568223827));
#455=CARTESIAN_POINT('',(4.65902399215178,19.7257021043584,536.000394452155));
#456=CARTESIAN_POINT('',(13.9765641338491,19.7256979969623,536.000220680482));
#457=CARTESIAN_POINT('',(13.9765641338491,19.7256979969623,536.000220680482));
#458=CARTESIAN_POINT('',(13.7866769519707,24.7120634089214,536.195145325116));
#459=CARTESIAN_POINT('',(13.7866769519689,24.7120634089214,536.195145325114));
#460=CARTESIAN_POINT('',(14.0341127971814,22.225,535.941145325116));
#461=CARTESIAN_POINT('',(0.,22.225,0.));
#462=CARTESIAN_POINT('',(14.7823755060208,22.225,564.516145325116));
#463=CARTESIAN_POINT('',(14.5216372126513,24.7120634089214,564.262145325118));
#464=CARTESIAN_POINT('',(14.7636186543698,19.7250666949336,564.497873209203));
#465=CARTESIAN_POINT('',(-0.0182658545305197,19.7250666949337,0.00047830823413054));
#466=CARTESIAN_POINT('',(14.0173813404112,19.7250666949335,536.0002199192));
#467=CARTESIAN_POINT('',(14.0356597154171,22.225,536.000219749195));
#468=CARTESIAN_POINT('',(13.7866769519707,24.7120634089214,536.195145325116));
#469=CARTESIAN_POINT('',(0.,22.225,0.));
#470=CARTESIAN_POINT('',(-14.7823755060208,22.225,564.516145325116));
#471=CARTESIAN_POINT('',(-14.8011323576802,19.7250666949337,564.534417441037));
#472=CARTESIAN_POINT('',(-0.0182658545186498,19.7250666949337,-0.000478308233819537));
#473=CARTESIAN_POINT('',(-14.8022145122804,19.7250666949337,564.575743257937));
#474=CARTESIAN_POINT('',(-14.7839361285917,22.225,564.575743096642));
#475=CARTESIAN_POINT('',(-14.7243191129162,19.7257103707883,564.575741879673));
#476=CARTESIAN_POINT('',(-14.7823755060208,22.225,564.516145325116));
#477=CARTESIAN_POINT('',(74.3199604604676,22.225,564.516145325116));
#478=CARTESIAN_POINT('',(-14.7914911103328,22.225,564.516145325116));
#479=CARTESIAN_POINT('',(74.3199604604676,22.225,564.516145325116));
#480=CARTESIAN_POINT('',(14.7823755060208,22.225,564.516145325116));
#481=CARTESIAN_POINT('',(14.764575598743,19.7250666949337,564.534417441044));
#482=CARTESIAN_POINT('',(14.7248267290494,19.7256979997196,564.575220797136));
#483=CARTESIAN_POINT('',(14.7732599017171,22.225,564.516145325116));
#484=CARTESIAN_POINT('',(14.5216372126517,24.7120634089214,564.262145325116));
#485=CARTESIAN_POINT('',(14.7248267290494,19.7256979997196,564.575220797136));
#486=CARTESIAN_POINT('',(4.9084447817275,19.7257021052921,564.575394491315));
#487=CARTESIAN_POINT('',(-4.90793716559437,19.7257062289816,564.575568185494));
#488=CARTESIAN_POINT('',(-14.7243191129162,19.7257103707883,564.575741879672));
#489=CARTESIAN_POINT('',(0.,22.225,0.));
#490=CARTESIAN_POINT('',(14.7839224285607,22.225,564.575219913566));
#491=CARTESIAN_POINT('',(14.7656440533275,19.7250666949335,564.575220074861));
#492=CARTESIAN_POINT('',(-0.0182658545305197,19.7250666949337,0.00047830823413054));
#493=CARTESIAN_POINT('',(0.253912960543802,73.025,0.00664894487019898));
#494=CARTESIAN_POINT('',(-13.7866769519707,53.732809932565,536.195145325116));
#495=CARTESIAN_POINT('',(-13.7866769519707,53.732809932565,536.195145325116));
#496=CARTESIAN_POINT('',(-14.5216372126517,53.7355037146806,564.262145325116));
#497=CARTESIAN_POINT('',(-14.5216372126517,53.7355037146806,564.262145325116));
#498=CARTESIAN_POINT('',(-14.5216372126517,53.7355037146806,564.262145325116));
#499=CARTESIAN_POINT('',(70.5579903419032,73.025,536.195145325116));
#500=CARTESIAN_POINT('',(13.7866769519707,24.7120634089214,536.195145325116));
#501=CARTESIAN_POINT('',(13.7866769519673,53.6317478596207,536.195145325116));
#502=CARTESIAN_POINT('',(-13.7866769519707,53.732809932565,536.195145325116));
#503=CARTESIAN_POINT('',(74.3199604604676,24.7120634089214,564.262145325116));
#504=CARTESIAN_POINT('',(-14.5216372126517,53.7355037146806,564.262145325116));
#505=CARTESIAN_POINT('',(14.5216372126495,53.6290540775101,564.262145325116));
#506=CARTESIAN_POINT('',(14.5216372126517,24.7120634089214,564.262145325116));
#507=CARTESIAN_POINT('',(-0.253912960543802,24.7120634089214,0.00664894487019898));
#508=CARTESIAN_POINT('',(-0.253840198932061,53.6832092731816,0.00942759871855833));
#509=CARTESIAN_POINT('',(79.8648034576022,53.3895577921974,606.633409325116));
#510=CARTESIAN_POINT('',(109.926706014076,-239.87695583045,564.573519428759));
#511=CARTESIAN_POINT('',(-15.3432453053943,-127.887515320412,564.575743257937));
#512=CARTESIAN_POINT('',(14.0127837412452,-185.682196584324,564.575220074861));
#513=CARTESIAN_POINT('',(-93.8016046652924,-241.047958536004,536.002212912678));
#514=CARTESIAN_POINT('',(-15.0107976012519,-241.336743219897,536.000743448203));
#515=CARTESIAN_POINT('',(13.060158449418,-241.439629108134,536.0002199192));
#516=CARTESIAN_POINT('',(14.0127837412452,-185.682196584324,564.575220074861));
#517=CARTESIAN_POINT('',(-14.594992653375,-127.8902578219,536.000743448203));
#518=MECHANICAL_DESIGN_GEOMETRIC_PRESENTATION_REPRESENTATION('',(#298),
#519);
#519=(
GEOMETRIC_REPRESENTATION_CONTEXT(3)
GLOBAL_UNCERTAINTY_ASSIGNED_CONTEXT((#520))
GLOBAL_UNIT_ASSIGNED_CONTEXT((#523,#522,#521))
REPRESENTATION_CONTEXT('IBDH-4-Mat_1cast','TOP_LEVEL_ASSEMBLY_PART')
);
#520=UNCERTAINTY_MEASURE_WITH_UNIT(LENGTH_MEASURE(0.005),#523,
'DISTANCE_ACCURACY_VALUE','Maximum Tolerance applied to model');
#521=(
NAMED_UNIT(*)
SI_UNIT($,.STERADIAN.)
SOLID_ANGLE_UNIT()
);
#522=(
NAMED_UNIT(*)
PLANE_ANGLE_UNIT()
SI_UNIT($,.RADIAN.)
);
#523=(
LENGTH_UNIT()
NAMED_UNIT(*)
SI_UNIT(.MILLI.,.METRE.)
);
#524=PRODUCT_DEFINITION_SHAPE('','',#525);
#525=PRODUCT_DEFINITION('','',#527,#526);
#526=PRODUCT_DEFINITION_CONTEXT('',#533,'design');
#527=PRODUCT_DEFINITION_FORMATION_WITH_SPECIFIED_SOURCE('','',#529,
 .NOT_KNOWN.);
#528=PRODUCT_RELATED_PRODUCT_CATEGORY('','',(#529));
#529=PRODUCT('IBDH-4-Mat_1cast','IBDH-4-Mat_1cast','IBDH-4-Mat_1cast',(#531));
#530=PRODUCT_CATEGORY('','');
#531=PRODUCT_CONTEXT('',#533,'mechanical');
#532=APPLICATION_PROTOCOL_DEFINITION('international standard',
'automotive_design',2010,#533);
#533=APPLICATION_CONTEXT(
'core data for automotive mechanical design processes');
ENDSEC;
END-ISO-10303-21;
